It is currently Sun Aug 31, 2014 5:57 am

All times are UTC + 7 hours [ DST ]




Post new topic Reply to topic  [ 33 ข้อความ ]  Go to page 1, 2, 3, 4  Next
Author Message
 Post subject: เพื่อเธอตลอดไป Guitar Classic by ลูกแกะ
PostPosted: Tue Nov 06, 2007 5:19 pm 
Offline
กรรมกรweb
User avatar

Joined: Wed Jan 31, 2007 12:41 pm
Posts: 4542
เป็นเพลงที่มีคนถามถึงมากจริงๆ หลังจากที่พี่ลุกแกะเอาคลิปมาลงที่ห้อง music clip มาถถึงตอนนี้ พี่ลูกแกะจัดให้แล้วครับ ดีใจกับน้องๆที่ขอด้วย



Image
Image
Image

_________________
Image


Top
 Profile  
 
 Post subject:
PostPosted: Tue Nov 06, 2007 6:23 pm 
Offline
เขบ็ต 1 ชั้น
User avatar

Joined: Sat Apr 14, 2007 12:47 pm
Posts: 116
สึดยอดมากครับ เป็นกำลังใจในการเขียน tab และแกะเพลง ต่อไป

แฟนคลับ ! :1:


Top
 Profile  
 
 Post subject:
PostPosted: Tue Nov 06, 2007 10:19 pm 
Offline
เขบ็ต 1 ชั้น
User avatar

Joined: Sat Apr 14, 2007 12:47 pm
Posts: 116
ขอถามหน่อยครับ

----|-----2-------|----
----|-----2-------|----
----|-----2-------|----
----|-----2-------|----
----|-----0-------|----
----|-------------|----

กับ

----|-----2--^-----|----
----|-----2--|-----|----
----|-----2--|-----|----
----|-----2--|-----|----
----|-----0--|-----|----
----|------- -l-----|----

เนี่ย อันแรกไม่มีดีดลง กับอันที่ 2 มีดีดลง ต่างกันไหมครับ แล้วก็

----|-----2-------|----
----|-----2-------|----
----|-----2-------|----
----|-------------|----
----|-----2------|----
----|-------------|----

เค้าดีดยังไงหรอครับ อาจเป็นคำถามง่ายๆ แต่ผมมือใหม่ ช่วยดูด้วยครับ อขบคุณครับ


Top
 Profile  
 
 Post subject:
PostPosted: Tue Nov 06, 2007 11:20 pm 
Offline
ตัวดำ
User avatar

Joined: Sat Apr 14, 2007 12:43 pm
Posts: 503
Location: บ้านนอกคอกนา
เจ๋งหวะพี่ลูกแกะ :10: แนวสบาย ๆ เหอ ๆ ไว้เล่นตอนไปทะเลได้ แต่มันไม่ใช่แนวผม แนวนี้ :2: :20:

_________________
นึกไม่ออกแต่ชอบดนตรีเว่ยยยยยยยย


Top
 Profile  
 
 Post subject:
PostPosted: Tue Nov 06, 2007 11:25 pm 
Offline
ตัวดำ
User avatar

Joined: Sun Sep 16, 2007 6:43 pm
Posts: 838
Location: นราธิวาส
53xmax wrote:
ขอถามหน่อยครับ

----|-----2-------|----
----|-----2-------|----
----|-----2-------|----
----|-----2-------|----
----|-----0-------|----
----|-------------|----

กับ

----|-----2--^-----|----
----|-----2--|-----|----
----|-----2--|-----|----
----|-----2--|-----|----
----|-----0--|-----|----
----|------- -l-----|----

เนี่ย อันแรกไม่มีดีดลง กับอันที่ 2 มีดีดลง ต่างกันไหมครับ แล้วก็

----|-----2-------|----
----|-----2-------|----
----|-----2-------|----
----|-------------|----
----|-----2------|----
----|-------------|----

เค้าดีดยังไงหรอครับ อาจเป็นคำถามง่ายๆ แต่ผมมือใหม่ ช่วยดูด้วยครับ อขบคุณครับ


จิงๆแล้วต่างกันเยอะครับ
ถ้ามีลูกศรให้เล่นทีละตัว ติดๆกัน
เสียงจะออกมาเหมือนกรีดคอร์ด
แต่ถ้าไม่มีลูกศรคือให้เล่นพร้อมกัน
แต่จะว่าไปก้อ อ่ะนะครับ
เขียนไปเขียนมาก้อเริ่มขี้เกียจ
แล้วแต่จะเล่นละกัน
ให้รู้กันว่าเล่นแบบไหนก้อได้น่ะคับ

_________________
www.guitarkd.com


Top
 Profile  
 
 Post subject:
PostPosted: Wed Nov 07, 2007 12:27 am 
Offline
เขบ็ต 1 ชั้น
User avatar

Joined: Sat Apr 14, 2007 12:47 pm
Posts: 116
แล้วอย่างเช่น


----|-----2-------|----
----|-----2-------|----
----|-----2-------|----
----|-------------|----
----|-----2------|----
----|-------------|----

กด 1 2 3 5 แล้ว เกาไปเลยเนี่ย ได้อยู่สินะครับ

ขอบคุณมากครับ :30: :30:


Top
 Profile  
 
 Post subject:
PostPosted: Wed Nov 07, 2007 5:50 pm 
Offline
เขบ็ต 1 ชั้น

Joined: Mon Aug 13, 2007 3:13 pm
Posts: 174
ขอบคุณมากๆครับผม เป็นกำลังใจให้ คุณ ลูกแกะ นะครับ


Top
 Profile  
 
 Post subject: พี่ลูกแกะคับช่วยหน่อยน้า
PostPosted: Fri Nov 09, 2007 7:08 pm 
Offline
น้องใหม่

Joined: Thu Oct 25, 2007 2:27 pm
Posts: 12
Location: 29/38
ช่วยแกะ แทปเพลง บ้าบอ ให้ผมหน่อยได้ไหมคับของ silly Fools ถ้าว่างช่วยหน่อยนะคับไม่ว่างไม่เปนไรขอบคุณล่วงหน้าเลยคับพี่

_________________
สิทธิโชต มนูพิบูลย์


Top
 Profile  
 
 Post subject:
PostPosted: Wed Nov 14, 2007 2:15 pm 
Offline

Joined: Wed Nov 14, 2007 2:12 pm
Posts: 1
สุดยอดมากครับพี่


Top
 Profile  
 
 Post subject:
PostPosted: Tue Nov 20, 2007 12:18 pm 
Offline

Joined: Tue Nov 20, 2007 12:16 pm
Posts: 1
ขอ tab ของท่อนจบด้วยได้ไหมครับ


Top
 Profile  
 
Display posts from previous:  Sort by  
Post new topic Reply to topic  [ 33 ข้อความ ]  Go to page 1, 2, 3, 4  Next

All times are UTC + 7 hours [ DST ]


Who is online

Users browsing this forum: No registered users and 0 guests


You cannot post new topics in this forum
You cannot reply to topics in this forum
You cannot edit your posts in this forum
You cannot delete your posts in this forum

Jump to:  
SubLite Theme By Echo , , Powered by phpBB © 2000, 2002, 2005, 2007 phpBB Group