It is currently Wed Apr 23, 2014 6:32 pm

All times are UTC + 7 hours [ DST ]




Post new topic Reply to topic  [ 4 ข้อความ ] 
Author Message
 Post subject: แจก Gp เพลง ลูกอม จากนี้ไปจนนิรันดร์ เพื่อเธอตลอดไป
PostPosted: Thu Dec 15, 2011 1:53 am 
Offline
น้องใหม่

Joined: Wed Sep 15, 2010 11:02 pm
Posts: 58
http://mediafire.com/download.php?0l5u4aeff2qutz0 ---> เพื่อเธอตลอดไป Gp5
http://mediafire.com/download.php?c1yii8f9wqv2jdk ---> จากนี้ไปจนนิรันดร์ Gp5
http://mediafire.com/download.php?c45i17ojufrkxl3 ---> ลูกอม Gp5

^ ^ อย่าลืมนำไป แบ่งปัน กันต่อนะครับ

ลิงค์เสีย เน่า เปลื่อย ก็บอกได้นะครับ


Top
 Profile  
 
 Post subject: Re: แจก Gp เพลง ลูกอม จากนี้ไปจนนิรันดร์ เพื่อเธอตลอดไป
PostPosted: Sat Jan 14, 2012 1:41 am 
Offline
น้องใหม่

Joined: Wed Sep 15, 2010 11:02 pm
Posts: 58
ู^ ^ เป็นยังไง ทำไมไม่บอกกันมั้งเลย -*-


Top
 Profile  
 
 Post subject: Re: แจก Gp เพลง ลูกอม จากนี้ไปจนนิรันดร์ เพื่อเธอตลอดไป
PostPosted: Sun Jan 15, 2012 4:42 pm 
Offline

Joined: Sun Dec 11, 2011 4:53 pm
Posts: 1
-ขอบคุรมากน่ะคับ ผมสูบไปอันเดียวเอง แต่ก็ดีน่ะคับ คิดว่าตรง


Top
 Profile  
 
 Post subject: Re: แจก Gp เพลง ลูกอม จากนี้ไปจนนิรันดร์ เพื่อเธอตลอดไป
PostPosted: Sat Jan 21, 2012 10:22 pm 
Offline
น้องใหม่

Joined: Fri Oct 15, 2010 3:01 pm
Posts: 59
ขอแนะนำนะครับ
เพลงจากนี้ไปจนนิรันดร์
ช่วง
-----------2----3------------2---3-----------2----3-------------2----3---------------------------------
--------3------------------3---------------3------------------3------------------------------------
-----0------------------0---------------0------------------0---------------------------------------
-----------------------------------------------------------------------------------------------
-----------------------------------------------------------------------------------------------
-3-------------------3--------------0------------------0-------------------------------------------

ช่วงintroควรเป็น

-----------2----3------------2---3-----------2----3-------------2----3---------------------------------
-----------------------------------------------------------------------------------------------
------0-------------------0---------------0------------------0-------------------------------------
----0-------------------0--------------2------------------2----------------------------------------
-----------------------------------------------------------------------------------------------
-3-------------------3--------------0------------------0-------------------------------------------

น่าจะเหมือนกว่านะครับ


Top
 Profile  
 
Display posts from previous:  Sort by  
Post new topic Reply to topic  [ 4 ข้อความ ] 

All times are UTC + 7 hours [ DST ]


Who is online

Users browsing this forum: No registered users and 3 guests


You cannot post new topics in this forum
You cannot reply to topics in this forum
You cannot edit your posts in this forum
You cannot delete your posts in this forum

Jump to:  
SubLite Theme By Echo , , Powered by phpBB © 2000, 2002, 2005, 2007 phpBB Group